  0
SECTION
  2
HEADER
  9
$ACADVER
  1
AC1009
  9
$DWGCODEPAGE
  3
ansi_1252
  9
$INSBASE
 10
0.0
 20
0.0
 30
0.0
  9
$EXTMIN
 10
45.912819
 20
53.997345
 30
0.0
  9
$EXTMAX
 10
145.912811
 20
238.997345
 30
0.0
  9
$LIMMIN
 10
0.0
 20
0.0
  9
$LIMMAX
 10
0.0
 20
0.0
  9
$ORTHOMODE
 70
     0
  9
$REGENMODE
 70
     1
  9
$FILLMODE
 70
     1
  9
$QTEXTMODE
 70
     0
  9
$MIRRTEXT
 70
     1
  9
$DRAGMODE
 70
     2
  9
$LTSCALE
 40
1.0
  9
$OSMODE
 70
     0
  9
$ATTMODE
 70
     1
  9
$TEXTSIZE
 40
0.2
  9
$TRACEWID
 40
0.05
  9
$TEXTSTYLE
  7
STANDARD
  9
$CLAYER
  8
0
  9
$CELTYPE
  6
CONTINUOUS
  9
$CECOLOR
 62
   256
  9
$DIMSCALE
 40
1.0
  9
$DIMASZ
 40
0.18
  9
$DIMEXO
 40
0.0625
  9
$DIMDLI
 40
0.38
  9
$DIMRND
 40
0.0
  9
$DIMDLE
 40
0.0
  9
$DIMEXE
 40
0.18
  9
$DIMTP
 40
0.0
  9
$DIMTM
 40
0.0
  9
$DIMTXT
 40
0.18
  9
$DIMCEN
 40
0.09
  9
$DIMTSZ
 40
0.0
  9
$DIMTOL
 70
     0
  9
$DIMLIM
 70
     0
  9
$DIMTIH
 70
     1
  9
$DIMTOH
 70
     1
  9
$DIMSE1
 70
     0
  9
$DIMSE2
 70
     0
  9
$DIMTAD
 70
     0
  9
$DIMZIN
 70
     0
  9
$DIMBLK
  1

  9
$DIMASO
 70
     1
  9
$DIMSHO
 70
     1
  9
$DIMPOST
  1

  9
$DIMAPOST
  1

  9
$DIMALT
 70
     0
  9
$DIMALTD
 70
     2
  9
$DIMALTF
 40
25.4
  9
$DIMLFAC
 40
1.0
  9
$DIMTOFL
 70
     0
  9
$DIMTVP
 40
0.0
  9
$DIMTIX
 70
     0
  9
$DIMSOXD
 70
     0
  9
$DIMSAH
 70
     0
  9
$DIMBLK1
  1

  9
$DIMBLK2
  1

  9
$DIMSTYLE
  2
STANDARD
  9
$DIMCLRD
 70
     0
  9
$DIMCLRE
 70
     0
  9
$DIMCLRT
 70
     0
  9
$DIMTFAC
 40
1.0
  9
$DIMGAP
 40
0.09
  9
$LUNITS
 70
     2
  9
$LUPREC
 70
     4
  9
$AXISMODE
 70
     0
  9
$AXISUNIT
 10
0.0
 20
0.0
  9
$SKETCHINC
 40
0.1
  9
$FILLETRAD
 40
0.0
  9
$AUNITS
 70
     0
  9
$AUPREC
 70
     0
  9
$MENU
  1
acad
  9
$ELEVATION
 40
0.0
  9
$PELEVATION
 40
0.0
  9
$THICKNESS
 40
0.0
  9
$LIMCHECK
 70
     0
  9
$BLIPMODE
 70
     1
  9
$CHAMFERA
 40
0.0
  9
$CHAMFERB
 40
0.0
  9
$SKPOLY
 70
     0
  9
$TDCREATE
 40
0.000000000
  9
$TDUPDATE
 40
0.000000000
  9
$TDINDWG
 40
0.0000000000
  9
$TDUSRTIMER
 40
0.0000000000
  9
$USRTIMER
 70
     1
  9
$ANGBASE
 50
0.0
  9
$ANGDIR
 70
     0
  9
$PDMODE
 70
     0
  9
$PDSIZE
 40
0.0
  9
$PLINEWID
 40
0.0
  9
$COORDS
 70
     0
  9
$SPLFRAME
 70
     0
  9
$SPLINETYPE
 70
     6
  9
$SPLINESEGS
 70
     8
  9
$ATTDIA
 70
     0
  9
$ATTREQ
 70
     1
  9
$HANDLING
 70
     1
  9
$HANDSEED
  5
74
  9
$SURFTAB1
 70
     6
  9
$SURFTAB2
 70
     6
  9
$SURFTYPE
 70
     6
  9
$SURFU
 70
     6
  9
$SURFV
 70
     6
  9
$UCSNAME
  2

  9
$UCSORG
 10
0.0
 20
0.0
 30
0.0
  9
$UCSXDIR
 10
1.0
 20
0.0
 30
0.0
  9
$UCSYDIR
 10
0.0
 20
1.0
 30
0.0
  9
$PUCSNAME
  2

  9
$PUCSORG
 10
0.0
 20
0.0
 30
0.0
  9
$PUCSXDIR
 10
1.0
 20
0.0
 30
0.0
  9
$PUCSYDIR
 10
0.0
 20
1.0
 30
0.0
  9
$USERI1
 70
     0
  9
$USERI2
 70
     0
  9
$USERI3
 70
     0
  9
$USERI4
 70
     0
  9
$USERI5
 70
     0
  9
$USERR1
 40
0.0
  9
$USERR2
 40
0.0
  9
$USERR3
 40
0.0
  9
$USERR4
 40
0.0
  9
$USERR5
 40
0.0
  9
$WORLDVIEW
 70
     1
  9
$SHADEDGE
 70
     3
  9
$SHADEDIF
 70
    70
  9
$TILEMODE
 70
     1
  9
$MAXACTVP
 70
    16
  9
$PINSBASE
 10
0.0
 20
0.0
 30
0.0
  9
$PLIMCHECK
 70
     0
  9
$PEXTMIN
 10
1.000000E+20
 20
1.000000E+20
 30
1.000000E+20
  9
$PEXTMAX
 10
-1.000000E+20
 20
-1.000000E+20
 30
-1.000000E+20
  9
$PLIMMIN
 10
0.0
 20
0.0
  9
$PLIMMAX
 10
12.0
 20
9.0
  9
$UNITMODE
 70
     0
  9
$VISRETAIN
 70
     0
  9
$PLINEGEN
 70
     1
  9
$PSLTSCALE
 70
     0
  9
$TREEDEPTH
 70
  3020
  0
ENDSEC
  0
SECTION
  2
TABLES
  0
TABLE
  2
VPORT
 70
     1
  0
VPORT
  2
*ACTIVE
 70
     0
 10
0.0
 20
0.0
 11
1.0
 21
1.0
 12
6.591288
 22
4.579184
 13
0.0
 23
0.0
 14
1.0
 24
1.0
 15
0.0
 25
0.0
 16
0.0
 26
0.0
 36
1.0
 17
0.0
 27
0.0
 37
0.0
 40
9.158369
 41
0.688564
 42
50.0
 43
0.0
 44
0.0
 50
0.0
 51
0.0
 71
     0
 72
   100
 73
     1
 74
     1
 75
     0
 76
     0
 77
     0
 78
     0
  0
ENDTAB
  0
TABLE
  2
LTYPE
 70
    17
  0
LTYPE
  2
CONTINUOUS
 70
    64
  3
Solid line
 72
    65
 73
     0
 40
0.0
  0
LTYPE
  2
SOLID
 70
    64
  3

 72
    65
 73
     0
 40
0.0
  0
LTYPE
  2
DASHED
 70
    64
  3

 72
    65
 73
     2
 40
10.0
 49
5.0
 49
-5.0
  0
LTYPE
  2
CENTER_LINE
 70
    64
  3

 72
    65
 73
     4
 40
20.0
 49
10.0
 49
-2.0
 49
5.0
 49
-3.0
  0
LTYPE
  2
DOTTED
 70
    64
  3

 72
    65
 73
     2
 40
0.25
 49
0.0
 49
-0.25
  0
LTYPE
  2
DOT-DASHED
 70
    64
  3

 72
    65
 73
     4
 40
8.0
 49
5.0
 49
-1.0
 49
1.0
 49
-1.0
  0
LTYPE
  2
DASH-DOT-DOT
 70
    64
  3

 72
    65
 73
     6
 40
10.0
 49
5.0
 49
-1.0
 49
1.0
 49
-1.0
 49
1.0
 49
-1.0
  0
LTYPE
  2
START_ARROW
 70
    64
  3

 72
    65
 73
     0
 40
0.0
  0
LTYPE
  2
END_ARROW
 70
    64
  3

 72
    65
 73
     0
 40
0.0
  0
LTYPE
  2
END_DOT
 70
    64
  3

 72
    65
 73
     0
 40
0.0
  0
LTYPE
  2
ARROW
 70
    64
  3

 72
    65
 73
     0
 40
0.0
  0
LTYPE
  2
STITCH_LINE
 70
    64
  3

 72
    65
 73
     2
 40
6.0
 49
3.0
 49
-3.0
  0
LTYPE
  2
CENTER_LINE_2
 70
    64
  3

 72
    65
 73
     4
 40
17.0
 49
10.0
 49
-2.0
 49
3.0
 49
-2.0
  0
LTYPE
  2
HIDDEN_LINE
 70
    64
  3

 72
    65
 73
     2
 40
4.0
 49
2.0
 49
-2.0
  0
LTYPE
  2
PHANTOM_LINE
 70
    64
  3

 72
    65
 73
     6
 40
21.0
 49
10.0
 49
-2.0
 49
3.0
 49
-1.0
 49
3.0
 49
-2.0
  0
LTYPE
  2
BREAK_LINE_1
 70
    64
  3

 72
    65
 73
     0
 40
0.0
  0
LTYPE
  2
BREAK_LINE_2
 70
    64
  3

 72
    65
 73
     0
 40
0.0
  0
ENDTAB
  0
TABLE
  2
LAYER
 70
     2
  0
LAYER
  2
0
 70
     0
 62
     7
  6
CONTINUOUS
  0
LAYER
  2
STANDARD_LAYER
 70
     0
 62
     7
  6
CONTINUOUS
  0
ENDTAB
  0
TABLE
  2
STYLE
 70
     1
  0
STYLE
  2
STANDARD
 70
     0
 40
0.0
 41
1.0
 50
0.0
 71
     0
 42
0.0
  3
txt
  4

  0
ENDTAB
  0
TABLE
  2
VIEW
 70
     0
  0
ENDTAB
  0
TABLE
  2
UCS
 70
     1
  0
UCS
  2
ISODRAW_6
 70
     0
 10
0.0
 20
0.0
 30
0.0
 11
0.0
 21
1.0
 31
0.0
 12
0.0
 22
0.0
 32
1.0
  0
ENDTAB
  0
TABLE
  2
APPID
 70
     1
  0
APPID
  2
ACAD
 70
     0
  0
ENDTAB
  0
TABLE
  2
DIMSTYLE
 70
     1
  0
DIMSTYLE
  2
STANDARD
 70
     0
  3

  4

  5

  6

  7

 40
1.0
 41
0.18
 42
0.0625
 43
0.38
 44
0.18
 45
0.0
 46
0.0
 47
0.0
 48
0.0
 71
     0
 72
     0
 73
     1
 74
     1
 75
     0
 76
     0
 77
     0
 78
     0
140
0.18
141
0.09
142
0.0
143
25.4
144
1.0
145
0.0
146
1.0
147
0.09
170
     0
171
     2
172
     0
173
     0
174
     0
175
     0
176
     0
177
     0
178
     0
  0
ENDTAB
  0
ENDSEC
  0
SECTION
  2
BLOCKS
  0
ENDSEC
  0
SECTION
  2
ENTITIES
  0
LINE
  8
STANDARD_LAYER
  6
SOLID
 62
     3
  5
2F
 10
100.801689
 20
78.453308
 30
0.0
 11
90.801689
 21
78.453308
 31
0.0
  0
CIRCLE
  8
STANDARD_LAYER
  6
SOLID
 62
     2
  5
30
 10
95.912819
 20
223.997345
 30
0.0
 40
5.0
  0
LINE
  8
STANDARD_LAYER
  6
SOLID
 62
     3
  5
31
 10
45.912819
 20
53.997345
 30
0.0
 11
65.912811
 21
53.997345
 31
0.0
  0
LINE
  8
STANDARD_LAYER
  6
SOLID
 62
     3
  5
32
 10
125.912811
 20
53.997345
 30
0.0
 11
145.912811
 21
53.997345
 31
0.0
  0
ARC
  8
STANDARD_LAYER
  6
SOLID
 62
     3
  5
33
 10
95.912819
 20
223.997345
 30
0.0
 40
15.0
 50
12.222
 51
167.778
  0
LINE
  8
STANDARD_LAYER
  6
SOLID
 62
     3
  5
34
 10
90.801689
 20
148.453491
 30
0.0
 11
90.801689
 21
98.453308
 31
0.0
  0
LINE
  8
STANDARD_LAYER
  6
SOLID
 62
     3
  5
35
 10
105.801689
 20
158.453293
 30
0.0
 11
105.801689
 21
148.453094
 31
0.0
  0
LINE
  8
STANDARD_LAYER
  6
SOLID
 62
     3
  5
36
 10
105.801689
 20
98.453506
 30
0.0
 11
105.801689
 21
88.453308
 31
0.0
  0
LINE
  8
STANDARD_LAYER
  6
SOLID
 62
     3
  5
37
 10
105.801689
 20
88.453308
 30
0.0
 11
100.801689
 21
88.453308
 31
0.0
  0
LINE
  8
STANDARD_LAYER
  6
SOLID
 62
     3
  5
38
 10
105.801689
 20
158.453293
 30
0.0
 11
100.801689
 21
158.453293
 31
0.0
  0
LINE
  8
STANDARD_LAYER
  6
SOLID
 62
     3
  5
39
 10
100.801689
 20
158.453293
 30
0.0
 11
100.801689
 21
168.453293
 31
0.0
  0
LINE
  8
STANDARD_LAYER
  6
SOLID
 62
     3
  5
3A
 10
100.801689
 20
168.453293
 30
0.0
 11
90.801689
 21
168.453293
 31
0.0
  0
LINE
  8
STANDARD_LAYER
  6
SOLID
 62
     3
  5
3B
 10
100.801689
 20
88.453308
 30
0.0
 11
100.801689
 21
78.453308
 31
0.0
  0
LINE
  8
STANDARD_LAYER
  6
SOLID
 62
     2
  5
3C
 10
55.912819
 20
68.997345
 30
0.0
 11
55.912819
 21
58.997345
 31
0.0
  0
LINE
  8
STANDARD_LAYER
  6
SOLID
 62
     2
  5
3D
 10
58.212818
 20
68.997345
 30
0.0
 11
58.212818
 21
58.997345
 31
0.0
  0
LINE
  8
STANDARD_LAYER
  6
SOLID
 62
     2
  5
3E
 10
55.912819
 20
68.997345
 30
0.0
 11
58.212818
 21
68.997345
 31
0.0
  0
LINE
  8
STANDARD_LAYER
  6
SOLID
 62
     2
  5
3F
 10
58.212818
 20
58.997345
 30
0.0
 11
55.912819
 21
58.997345
 31
0.0
  0
LINE
  8
STANDARD_LAYER
  6
SOLID
 62
     2
  5
40
 10
135.912811
 20
68.997345
 30
0.0
 11
135.912811
 21
58.997345
 31
0.0
  0
LINE
  8
STANDARD_LAYER
  6
SOLID
 62
     2
  5
41
 10
133.612808
 20
68.997345
 30
0.0
 11
133.612808
 21
58.997345
 31
0.0
  0
LINE
  8
STANDARD_LAYER
  6
SOLID
 62
     2
  5
42
 10
135.912811
 20
68.997345
 30
0.0
 11
133.612808
 21
68.997345
 31
0.0
  0
LINE
  8
STANDARD_LAYER
  6
SOLID
 62
     2
  5
43
 10
133.612808
 20
58.997345
 30
0.0
 11
135.912811
 21
58.997345
 31
0.0
  0
LINE
  8
STANDARD_LAYER
  6
SOLID
 62
     3
  5
44
 10
103.801689
 20
148.453308
 30
0.0
 11
103.801689
 21
98.453308
 31
0.0
  0
LINE
  8
STANDARD_LAYER
  6
SOLID
 62
     3
  5
45
 10
103.801689
 20
148.453308
 30
0.0
 11
105.801689
 21
148.453308
 31
0.0
  0
LINE
  8
STANDARD_LAYER
  6
SOLID
 62
     3
  5
46
 10
103.801689
 20
98.453308
 30
0.0
 11
105.801689
 21
98.453308
 31
0.0
  0
LINE
  8
STANDARD_LAYER
  6
SOLID
 62
     2
  5
47
 10
97.001686
 20
86.653305
 30
0.0
 11
94.601692
 21
86.653305
 31
0.0
  0
LINE
  8
STANDARD_LAYER
  6
SOLID
 62
     2
  5
48
 10
97.001686
 20
160.253296
 30
0.0
 11
94.601692
 21
160.253296
 31
0.0
  0
LINE
  8
STANDARD_LAYER
  6
SOLID
 62
     2
  5
49
 10
97.001686
 20
165.753296
 30
0.0
 11
94.601692
 21
165.753296
 31
0.0
  0
LINE
  8
STANDARD_LAYER
  6
SOLID
 62
     2
  5
4A
 10
97.001686
 20
81.153305
 30
0.0
 11
94.601692
 21
81.153305
 31
0.0
  0
LINE
  8
STANDARD_LAYER
  6
SOLID
 62
     2
  5
4B
 10
97.001686
 20
86.653305
 30
0.0
 11
97.001686
 21
81.153305
 31
0.0
  0
LINE
  8
STANDARD_LAYER
  6
SOLID
 62
     2
  5
4C
 10
94.601692
 20
81.153305
 30
0.0
 11
94.601692
 21
86.653305
 31
0.0
  0
LINE
  8
STANDARD_LAYER
  6
SOLID
 62
     2
  5
4D
 10
94.601692
 20
160.253296
 30
0.0
 11
94.601692
 21
165.753296
 31
0.0
  0
LINE
  8
STANDARD_LAYER
  6
SOLID
 62
     2
  5
4E
 10
97.001686
 20
165.753296
 30
0.0
 11
97.001686
 21
160.253296
 31
0.0
  0
LINE
  8
STANDARD_LAYER
  6
SOLID
 62
     3
  5
4F
 10
65.912811
 20
55.997345
 30
0.0
 11
125.912811
 21
55.997345
 31
0.0
  0
LINE
  8
STANDARD_LAYER
  6
SOLID
 62
     3
  5
50
 10
125.912811
 20
55.997345
 30
0.0
 11
125.912811
 21
53.997345
 31
0.0
  0
LINE
  8
STANDARD_LAYER
  6
SOLID
 62
     3
  5
51
 10
65.912811
 20
55.997345
 30
0.0
 11
65.912811
 21
53.997345
 31
0.0
  0
LINE
  8
STANDARD_LAYER
  6
SOLID
 62
     3
  5
52
 10
79.669556
 20
89.921883
 30
0.0
 11
79.669556
 21
79.921883
 31
0.0
  0
LINE
  8
STANDARD_LAYER
  6
SOLID
 62
     3
  5
53
 10
79.669556
 20
89.921883
 30
0.0
 11
74.919556
 21
89.921883
 31
0.0
  0
LINE
  8
STANDARD_LAYER
  6
SOLID
 62
     3
  5
54
 10
79.669556
 20
79.921883
 30
0.0
 11
73.919556
 21
79.921883
 31
0.0
  0
LINE
  8
STANDARD_LAYER
  6
SOLID
 62
     3
  5
55
 10
74.919556
 20
89.921883
 30
0.0
 11
73.919556
 21
79.921883
 31
0.0
  0
CIRCLE
  8
STANDARD_LAYER
  6
SOLID
 62
     2
  5
56
 10
130.912811
 20
223.997345
 30
0.0
 40
5.0
  0
CIRCLE
  8
STANDARD_LAYER
  6
SOLID
 62
     3
  5
57
 10
130.912811
 20
223.997345
 30
0.0
 40
15.0
  0
CIRCLE
  8
STANDARD_LAYER
  6
SOLID
 62
     3
  5
58
 10
60.912827
 20
223.997345
 30
0.0
 40
15.0
  0
ARC
  8
STANDARD_LAYER
  6
SOLID
 62
     3
  5
59
 10
96.001915
 20
58.635437
 30
0.0
 40
50.089096
 50
167.778
 51
180.0
  0
LINE
  8
STANDARD_LAYER
  6
SOLID
 62
     3
  5
5A
 10
45.912819
 20
58.635437
 30
0.0
 11
45.912819
 21
53.997345
 31
0.0
  0
LINE
  8
STANDARD_LAYER
  6
SOLID
 62
     3
  5
5B
 10
81.252701
 20
227.172379
 30
0.0
 11
47.047768
 21
69.237755
 31
0.0
  0
ARC
  8
STANDARD_LAYER
  6
SOLID
 62
     3
  5
5C
 10
95.823715
 20
58.635441
 30
0.0
 40
50.089096
 50
0.0
 51
12.222
  0
LINE
  8
STANDARD_LAYER
  6
SOLID
 62
     3
  5
5D
 10
145.912811
 20
58.635441
 30
0.0
 11
145.912811
 21
53.997345
 31
0.0
  0
LINE
  8
STANDARD_LAYER
  6
SOLID
 62
     3
  5
5E
 10
110.572937
 20
227.172379
 30
0.0
 11
144.777863
 21
69.237755
 31
0.0
  0
ARC
  8
STANDARD_LAYER
  6
SOLID
 62
     2
  5
5F
 10
95.921928
 20
180.246735
 30
0.0
 40
9.251755
 50
12.222
 51
167.832001
  0
ARC
  8
STANDARD_LAYER
  6
SOLID
 62
     2
  5
60
 10
116.929329
 20
83.2491
 30
0.0
 40
9.251755
 50
0.0
 51
12.222
  0
ARC
  8
STANDARD_LAYER
  6
SOLID
 62
     2
  5
61
 10
116.929329
 20
83.2491
 30
0.0
 40
9.251755
 50
270.0
 51
360.0
  0
LINE
  8
STANDARD_LAYER
  6
SOLID
 62
     2
  5
62
 10
125.971451
 20
85.207413
 30
0.0
 11
104.96405
 21
182.205048
 31
0.0
  0
ARC
  8
STANDARD_LAYER
  6
SOLID
 62
     2
  5
63
 10
75.006355
 20
83.2491
 30
0.0
 40
9.251755
 50
167.832001
 51
270.0
  0
LINE
  8
STANDARD_LAYER
  6
SOLID
 62
     2
  5
64
 10
75.006355
 20
73.997345
 30
0.0
 11
116.929337
 21
73.997345
 31
0.0
  0
LINE
  8
STANDARD_LAYER
  6
SOLID
 62
     2
  5
65
 10
86.878036
 20
182.196869
 30
0.0
 11
65.962463
 21
85.199234
 31
0.0
  0
LINE
  8
STANDARD_LAYER
  6
SOLID
 62
     3
  5
66
 10
90.801636
 20
158.453293
 30
0.0
 11
85.801689
 21
158.453293
 31
0.0
  0
LINE
  8
STANDARD_LAYER
  6
SOLID
 62
     3
  5
67
 10
90.801727
 20
148.453308
 30
0.0
 11
85.801689
 21
153.453293
 31
0.0
  0
LINE
  8
STANDARD_LAYER
  6
SOLID
 62
     3
  5
68
 10
85.801689
 20
158.453293
 30
0.0
 11
85.801689
 21
153.453293
 31
0.0
  0
LINE
  8
STANDARD_LAYER
  6
SOLID
 62
     3
  5
69
 10
90.801636
 20
158.453293
 30
0.0
 11
90.801636
 21
168.453293
 31
0.0
  0
LINE
  8
STANDARD_LAYER
  6
SOLID
 62
     3
  5
6A
 10
90.801636
 20
88.453323
 30
0.0
 11
85.801689
 21
88.453323
 31
0.0
  0
LINE
  8
STANDARD_LAYER
  6
SOLID
 62
     3
  5
6B
 10
90.801727
 20
98.453308
 30
0.0
 11
85.801689
 21
93.453323
 31
0.0
  0
LINE
  8
STANDARD_LAYER
  6
SOLID
 62
     3
  5
6C
 10
85.801689
 20
88.453323
 30
0.0
 11
85.801689
 21
93.453323
 31
0.0
  0
LINE
  8
STANDARD_LAYER
  6
SOLID
 62
     3
  5
6D
 10
90.801636
 20
88.453323
 30
0.0
 11
90.801636
 21
78.453323
 31
0.0
  0
LINE
  8
STANDARD_LAYER
  6
SOLID
 62
     3
  5
6E
 10
112.266144
 20
89.921883
 30
0.0
 11
112.266144
 21
79.921883
 31
0.0
  0
LINE
  8
STANDARD_LAYER
  6
SOLID
 62
     3
  5
6F
 10
112.266144
 20
89.921883
 30
0.0
 11
117.016144
 21
89.921883
 31
0.0
  0
LINE
  8
STANDARD_LAYER
  6
SOLID
 62
     3
  5
70
 10
112.266144
 20
79.921883
 30
0.0
 11
118.016144
 21
79.921883
 31
0.0
  0
LINE
  8
STANDARD_LAYER
  6
SOLID
 62
     3
  5
71
 10
117.016144
 20
89.921883
 30
0.0
 11
118.016144
 21
79.921883
 31
0.0
  0
ENDSEC
  0
EOF
